Mor ve Ötesi Akorları - Ayıp Olmazmı (tab)

Mor ve Ötesi - Ayıp Olmazmı (tab)

Albüm : -

E----------------------------------------------------------------------
B------8-----8-----------8-----8---------8-----8----------8------8-----
G----7----7----7-------7----7----7-----7----7----7------7-----7----7---
X2 defa
D--6-----------------7---------------6----------------5----------------
A----------------------------------------------------------------------
E----------------------------------------------------------------------

Sonra sözlerle ile birlikte

Hayat o kadar zor mu
E----------------------------------------------------------------------
B------8-----8-----------8-----8---------8-----8----------8------8-----
G----7----7----7-------7----7----7-----7----7----7------7-----7----7---

D--6-----------------7---------------6----------------5----------------
A----------------------------------------------------------------------
E----------------------------------------------------------------------

Atılır mıyız oyundan benzemezsek onlara
E---------------------------------------------------------------------------------
B------8-----8-----------8-----8-----------------------------1----3------3------1-
G----7----7----7-------7----7----7--------------4----------0---------3-----3--0---
D--6-----------------7------------------------5--5-------2-----22--22-------2-----
A-------------------------------------------5----------3--------------------------
E-----------------------------------------3---------------------------------------

Bahane mi lazım mazeretimiz mi
Kalmamış
E----------------------------------------------------------------------
B------8-----8-----------8-----8---------8-----8----------8------8-----
G----7----7----7-------7----7----7-----7----7----7------7-----7----7---

D--6-----------------7---------------6----------------5----------------
A----------------------------------------------------------------------


E----------------------------------------------------------------------

Çok ayıp olmuş çok ayıp olmuş
E---------0-------0-----------------------0------------------
B------5----5---5-----------------------5----5---5----------
G----6--------6--------5-------------6---------6-------5----
D--7-------------------6-----------7-------------------6----
A----------------------6-------------------------------6----
E-----------------------------------------------------------
Çok ayıp olmuş derken harun F-A basıyo yani

Çok ayıp olmuş çok ayıp olmuş
E--0---------0--------------0--------------0--
B--1---------2--------------1--------------2--
G--2---------2--------------2--------------2--
D--3---------2--------------3--------------2--
A--0---------0--------------0--------------0--
E---------------------------------------------

İkinci bölüm

Hayat o kadar zor mu
E----------------------------------------------------------------------
B------8-----8-----------8-----8---------8-----8----------8------8-----
G----7----7----7-------7----7----7-----7----7----7------7-----7----7---

D--6-----------------7---------------6----------------5----------------
A----------------------------------------------------------------------
E----------------------------------------------------------------------

Takılır mıyız yolunda şekli gizli taşlara

E---------------------------------------------------------------------------------
B------8-----8-----------8-----8-----------------------------1----3------3------1-
G----7----7----7-------7----7----7--------------4----------0---------3-----3--0---
D--6-----------------7------------------------5--5------

Diğer Mor ve Ötesi Akorları İçin Tıklayınız..


Müzik ya da Musiki, en genel tanımı ile sesin biçim ve anlamlı titreşimler kazanmış halidir. Başka bir deyiş ile de müzik, sesin ve sessizliğin belirli bir zaman aralığında ifade edildiği sanatsal bir formdur .

Bu Sitede Yerli ve Yabancı Tüm Şarkıların Sözlerini Bulabilirsiniz . Yabancı Şarkıların Çevirileri de Mevcuttur .

Eklenmesini istediğiniz şarkı sözleri için iletişime geçiniz .