Mor ve Ötesi Akorları - Az Çok (Tab)

Mor ve Ötesi - Az Çok (Tab)

Albüm : -

--7-7-7-7-7-7-7-7--5-5-5-5--2-2-2-2-----
--8-8-8-8-8-8-8-8--7-7-7-7--3-3-3-3-----
--7-7-7-7-7-7-7-7--7-7-7-7--2-2-2-2-----
--0-0-0-0-0-0-0-0-----------0-0-0-0-----
----------------------------------------
----------------------------------------

-3-3-3-3-3--7-7-7--5-5-5-5--8-8-8-8-----
-4-4-4-4-4--8-8-8--7-7-7-7--9-9-9-9-----
-3-3-3-3-3--7-7-7--7-7-7-7--9-9-9-9-----
----------------------------------------
----------------------------------------
----------------------------------------

-7-7-7-7-7-7-7-7--5-5-5-5--2-2-2-2------
-8-8-8-8-8-8-8-8--7-7-7-7--3-3-3-3------
-7-7-7-7-7-7-7-7--7-7-7-7--2-2-2-2------
-0-0-0-0-0-0-0-0-----------0-0-0-0------
----------------------------------------
----------------------------------------

-3-3-3-3-3-3-3-3--2-2-2-2-2-2-2-2-------
-4-4-4-4-4-4-4-4--3-3-3-3-3-3-3-3-------
-3-3-3-3-3-3-3-3--2-2-2-2-2-2-2-2-------
----------------------------------------
----------------------------------------
----------------------------------------

distortion:

Bb C G F
SU DAMLASI GIBI HAYAT OZGURUM
Bb C G A
ISLAK ÇIPLAK PIRIL PIRIL BI DAMLA IÇINDE

G A B A Bb |Bu bölumde
UZAK BIR ISIK BIR ÇIGLIK GIBI |kerem sadece
|G vuruyo
C G F
ÇAGIRIYOR BENI

NAKARAT:(HARUN)CLEAN
G F G F
BILIYORSUN AZ ÇOK GÖRUYORSUN HERSEYI
G Bb G
BILIYORSUN AZ ÇOKTUR
NAKARAT:(KEREM)distortion

---------------------------------------------
---------------------------------------------
-5--5-5-5-5h7-9-8-8-8h10--10h12-12-12-12-10--
---------------------------------------------
-3--3-3-3-3h5-7-6-6-6h8----8h10-10-10-10-8---
---------------------------------------------


---------------------------------------------
---------------------------------------------
-5--5-5-5--5h7-9-8-8-8-8h10--10h12-12-12-12--
---------------------------------------------
-3--3-3-3--3h5-7-6-6-6-6h8---8h10--10-10-10--
---------------------------------------------

--7-7-7-8-10--7-----------------------------|
----------------8-6h8-8-8-------------------|
--------------------------------------------|
--------------------------------------------|
--------------------------------------------|
--------------------------------------------|




SAHIP OLDUKÇA HEP BIR YENISI DAHA
ISLAK ÇIPLAK PIRIL PIRIL BIDUNYA IÇINDE
UZAK BIR ISIK BIR ÇIGLIK GIBI
ÇAGIRIYOR BENI
BILIYORSUN AZ ÇOK
GORUYORSUN HERSEYI
BILIYORSUN AZ ÇOKTUR


BITIS:

--7-7-7-7-7-7-7-7--5-5-5-5--2-2-2-2-----
--8-8-8-8-8-8-8-8--7-7-7-7--3-3-3-3-----
--7-7-7-7-7-7-7-7--7-7-7-7--2-2-2-2-----
--0-0-0-0-0-0-0-0-----------0-0-0-0-----
----------------------------------------
----------------------------------------

-3-3-3-3-3--7-7-7--5-5-5-5--8-8-8-8-----
-4-4-4-4-4--8-8-8--7-7-7-7--9-9-9-9-----
-3-3-3-3-3--7-7-7--7-7-7-7--9-9-9-9-----
----------------------------------------
----------------------------------------
----------------------------------------

-7-7-7-7-7-7-7-7--5-5-5-5--2-2-2-2------
-8-8-8-8-8-8-8-8--7-7-7-7--3-3-3-3------
-7-7-7-7-7-7-7-7--7-7-7-7--2-2-2-2------
-0-0-0-0-0-0-0-0-----------0-0-0-0------
----------------------------------------
----------------------------------------

-3-3-3-3-3-3-3-3--2-2-2-2-2-2-2-2--0---3-
-4-4-4-4-4-4-4-4--3-3-3-3-3-3-3-3--1-0-0-
-3-3-3-3-3-3-3-3--2-2-2-2-2-2-2-2--0-0-0-
-------------------------------------0-0-
-----------------------------------------
-----------------------------------------

Diğer Mor ve Ötesi Akorları İçin Tıklayınız..


Müzik ya da Musiki, en genel tanımı ile sesin biçim ve anlamlı titreşimler kazanmış halidir. Başka bir deyiş ile de müzik, sesin ve sessizliğin belirli bir zaman aralığında ifade edildiği sanatsal bir formdur .

Bu Sitede Yerli ve Yabancı Tüm Şarkıların Sözlerini Bulabilirsiniz . Yabancı Şarkıların Çevirileri de Mevcuttur .

Eklenmesini istediğiniz şarkı sözleri için iletişime geçiniz .