Mor ve Ötesi - Bahar

Albüm : -

intro:

E---------------------------------------------------------
B---------------------------------------------------------
G------9-9-9-9-9-9---9-9-9---10-10-10-10-10-10--10-10-10--
D------7-7-7-7-7-7---7-7-7---7--7--7--7--7--7---7--7--7---
A---------------------------------------------------------
E---------------------------------------------------------


E---------------------------------------------------------
B------------------------------9-9-9-9-9-9----12---10----
G------7-7-7-7-7-7---7-7-7-----------------------9--------
D------7-7-7-7-7-7---7-7-7-----7-7-7-7-7-7---------------
A---------------------------------------------------------
E---------------------------------------------------------

elimi tut, yüzüme bak desem )
içine bak, ne gördüğün desen ) yukarıdaki akorlar kullanılacak
yine mi donmuşuz bahar )
hem ne yaptık ki beraber )

A5 A5
yeni bir hayat mı kurduk yeni bir zaman mı bulduk
A5


sorularımız yanlış cevaplar doğru

yeni bir hayal mi kurduk
yeni bir yalan mı bulduk

A5 D5 C5 E
boyalarımız akmış suratlar yorgun


o büyülü söz nereye kadar gider bilinmez )
akla sığmaz bunca keder ) intro akorları
yine mi donmuşuz bahar )
hiç sonu yok mu bu yolların )



Am F Am Dm Am
yeni bir hayat mı kurduk yeni bir zaman mı bulduk
Dm C E
sorularımız yanlış cevaplar doğru
Am F Am Dm Am
yeni bir hayal mi kurduk yeni bir yalan mı bulduk

Am Dm C E
boyalarımız akmış suratlar yorgun

Am C B Bb
düşünmeden

intro akorları

Diğer Mor ve Ötesi Akorları İçin Tıklayınız..


Müzik ya da Musiki, en genel tanımı ile sesin biçim ve anlamlı titreşimler kazanmış halidir. Başka bir deyiş ile de müzik, sesin ve sessizliğin belirli bir zaman aralığında ifade edildiği sanatsal bir formdur .

Bu Sitede Yerli ve Yabancı Tüm Şarkıların Sözlerini Bulabilirsiniz . Yabancı Şarkıların Çevirileri de Mevcuttur .

Eklenmesini istediğiniz şarkı sözleri için iletişime geçiniz .