Mor ve Ötesi Akorları - Daha Mutlu Olamam (bas)

Mor ve Ötesi - Daha Mutlu Olamam (bas)

Albüm : -

|-------------------------------|
|-------------------------------|
|-4-4-4-4-4-4-4-4-4-4-4-4-4-4-4-|
|-------------------------------|
''Hayatımdan çok memnunum

|-------------------------------|
|-------------------------------|
|-6-6-6-6-6-6-6-6-6-6-6-6-6-6-6-|
|-------------------------------|
''Aşk bitti aşk aptallıktı
|-------------------------------|
|-------------------------------|
|-7-7-7-7-7-7-7-7-7-7-7-7-7-7-7-|
|-------------------------------|
''Bir de sigarayı bıraksam|-------------------------------|
|-------------------------------|
|-9-9-9-9-9-9-9-9-9-9-9-9-9-9-9-|
|-------------------------------|
''Kimse tutamaz beni artık|-------------------------------|
|-------------------------------|
|-5-5-5-5-5-5-5-5-5-5-5-5-5-5-5-|


|-------------------------------|
''Küçük şeyler sevindirir

|--------------------------------|
|--------------------------------|
|-7-7-6-6-7-7-6-6-7-7-6-6-7-7-6-6|
|--------------------------------|
.Ruhumu

|-------------------------------|
|-------------------------------|
|-5-5-5-5-5-5-5-5-5-5-5-5-5-5-5-|
|-------------------------------|
''Hayal bile edemezdim|---------------------------------|
|---------------------------------|
|-4-4-4-4-4-4-4-4-----------------|
|-----------------4-4-4-4-4-4-4-4-|
''Ben bunuuuuuuuuN A k A r A t

|-------------------------------------------------|
|-------------------------------------------------|
|-4-4-4-4-4-4-4-4-----------------0-0-0-0-0-0-0-0-|
|-----------------0-0-0-0-0-0-0-0-----------------|
''Daha mutlu olamam ''

Diğer Mor ve Ötesi Akorları İçin Tıklayınız..


Müzik ya da Musiki, en genel tanımı ile sesin biçim ve anlamlı titreşimler kazanmış halidir. Başka bir deyiş ile de müzik, sesin ve sessizliğin belirli bir zaman aralığında ifade edildiği sanatsal bir formdur .

Bu Sitede Yerli ve Yabancı Tüm Şarkıların Sözlerini Bulabilirsiniz . Yabancı Şarkıların Çevirileri de Mevcuttur .

Eklenmesini istediğiniz şarkı sözleri için iletişime geçiniz .