Mor ve Ötesi - Uyan

Albüm : -

UYAN-MOR VE OTESI
Tablayan Tacettin Ecevit Konya shownomercy12@yahoo.com


GIRIS
----------------------------------------------------------|
----------------------------------------------------------|
---------------------------------------------------------*|
-0-0-0-0-0-0-----------0---0--0-0-0-0-0-0----------------*|
-0-0-1-0-1-0-0-0-0-0-0-0-0-0--0-0-1-0-1-0-0-0-0-0-0-0-0-0-|
-------------3-1-3-1-0---3----------------3-1-1-1-0-0-1-3-|




-----------------------------------------------------
-3-3-3-3--3-3-3-3--5-5-5-5-3-3-3-3-------------------
--2-2-2-2--3-3-3-3--5-5-5-5-3-3-3-3------------------
-----------------------------------------------------
-----------------------------------------------------
-----------------------------------------------------
''CANIM KARDESIM BAK SENIN ELLERINDE HAYATIMIZ'
-------------------------|---------|
-------------------------|---------|
--7-7---7-7---7-7---7-7--|--(2-2)--|
--0-0---0-0---0-0---0-0--|--(0-0)--|
--0-0---0-0---0-0---0-0--|--(0-0)--|


--5-5---5-5---5-5---5-5--|--(0-0)--|


---------------------------------------------------
---------------------------------------------------
------------------------7--------------------------
-7----------8-----------7----------7---------------
-7----------8-----------5----------7---------------
-5----------6----------------------5---------------
ÇOK SIKILDIM AGLAMAKTAN DURMAKTAN


------------------------------------------------------
------------------------------------------------------
------------------------------------------------------
-7----------3---------5-----------8-----7-------------
-7----------3---------5-----------8-----7-------------
-5----------1---------3-----------6-----5-------------
BU AHLAKSIZ OYUNLARA DEVAM ETMEK GÜNAH

NAK:
----------------------------------------------------------|
----------------------------------------------------------|
---------------------------------------------------------*|
-0-0-0-0-0-0-----------0---0--0-0-0-0-0-0----------------*|
-0-0-1-0-1-0-0-0-0-0-0-0-0-0--0-0-1-0-1-0-0-0-0-0-0-0-0-0-|
-------------3-1-3-1-0---3----------------3-1-1-1-0-0-1-3-|

UYAN ARTIK UYAN UYAN DOSTUM UYAN....

Diğer Mor ve Ötesi Akorları İçin Tıklayınız..


Müzik ya da Musiki, en genel tanımı ile sesin biçim ve anlamlı titreşimler kazanmış halidir. Başka bir deyiş ile de müzik, sesin ve sessizliğin belirli bir zaman aralığında ifade edildiği sanatsal bir formdur .

Bu Sitede Yerli ve Yabancı Tüm Şarkıların Sözlerini Bulabilirsiniz . Yabancı Şarkıların Çevirileri de Mevcuttur .

Eklenmesini istediğiniz şarkı sözleri için iletişime geçiniz .