Oasis Akorları - Cigarettes And Alchool

Oasis - Cigarettes And Alchool

Albüm : -

E
Is it my imagination
F# A E (*)
Or have I finally found something worth living for?
E
I was looking for some action
F# A E (*)
But all I found was cigarettes and alcohol


Bridge: (1:08)

A E
You could wait for a lifetime
A E
To spend your days in the sunshine
A E
You might as well do the white line
Dsus4 A
Cos when it comes on top


Chorus: (1:22)

E Dsus4 A E Dsus4
You gotta make it happen! You gotta make it happen!
A E Dsus4 A E Dsus4 A
You gotta make it happen! You gotta make it happen!

C Dsus4 E
E ---------------------|
B ---------------------|
G -11b11-9-------------|
D ---------11b11-9--6b-|
A ---------------------|
E ---------------------|


[ Repeat whole Intro ]


Verse 2: (2:10) [ Same as Verse 1 ]


Is it worth the aggravation
To find yourself a job when there's nothing worth working for?
It's a crazy situation
But all I need are cigarettes and alcohol!

Bridge: (2:44)

You could wait for a lifetime
To spend your days in the sunshine
You might as well do the white line
Cos when it comes on top

Chorus: (2:59)

You gotta make it happen! You gotta make it happen!
You gotta make it happen! You gotta make it happen!


Solo: (3:17)

E Dsus4 A E Dsus4 A
A ---------------------------------------------------------------------|
B ---------------------------------------------------------------------|
G -9----9h11-10h9-11b11-9-9h11-9--9----9h11-10h9-11b11-9-9h11-9-9h11-9-|
D -9h11-9-------------------------9h11-9-------------------------------|
A ---------------------------------------------------------------------|
A ---------------------------------------------------------------------|

E Dsus4 A E Dsus4 A
A -----------------------------------------------------------------------|
B -----------------------------------------------------------------------|
G -9----9h11-10h9-11b11-9-9h11-9--9----9h11-10h9-11b11-11b11-11b11-11b11-|
D -9h11-9-------------------------9h11-9---------------------------------|
A -----------------------------------------------------------------------|
A -----------------------------------------------------------------------|


E Dsus4 A
You gotta, You gotta, You gotta make it!
You gotta, You gotta, You gotta fake it!
You gotta, You gotta, You gotta make it!
You gotta, You gotta, You gotta fake it! (woo!)

Diğer Oasis Akorları İçin Tıklayınız..


Müzik ya da Musiki, en genel tanımı ile sesin biçim ve anlamlı titreşimler kazanmış halidir. Başka bir deyiş ile de müzik, sesin ve sessizliğin belirli bir zaman aralığında ifade edildiği sanatsal bir formdur .

Bu Sitede Yerli ve Yabancı Tüm Şarkıların Sözlerini Bulabilirsiniz . Yabancı Şarkıların Çevirileri de Mevcuttur .

Eklenmesini istediğiniz şarkı sözleri için iletişime geçiniz .