Evanescence Akorları - Fields Of İnnocence(tab)

Evanescence - Fields Of İnnocence(tab)

Albüm : -

Am
e -----------0----------------------------------
B --1------3------1------0----------------------
G ----2---------2---2------2---2----------------
D ------2-------------2------2------------------
A ----------------------------------------------
E ----------------------------------------------






------------------------------------------------------------


Verse

Am
e -------------0-----------------------
B ----1------3------1------0-----------
G ------2---------2---2------2---2-----
D --------2-------------2------2-------
A -------------------------------------
E -------------------------------------

F
e -----------0-----------------------------------0----------------
B --1------3------1-------0------------1-------3------1-----------
G ----2---------2---2-------2---------0---2---------2---2---------
D ------2-------------2--------------3------3-------------2-------
A ----------------------------------3-----------------------------
E ------------------------------3---------------------------------


Dm
e ----------------------0---------------------------
B --0---------1-------3-------1-----0---------------
G ----2------2----2---------2---2-----2---2---------
D ------2---0-------2-------------2-----2-----------
A ---------0---------------------------------------
E -------------------------------------------------



Am F Dm Am
I can't remember the world through the eyes of a child



----------------------------------------------------

Chorus



~ - let ring


F E D E
e -------------------------------------------------------------
B ------1~----0-1------0~----------------------------------0~--
G -----2----2---------1----------4-2----------------------1----
D ----3--------------2----------------7~-----7-9-7-------2-----
A ---3--------------2-----------------5-----------------2------
E --1--------------0----------------------------------0---------




F E
Where has my heart gone?

D E
An uneven trade for the real world



---------------------------------------------------------

Pre-2nd chorus

F G Am
e -----------------------------------------------
B -----------------------1-----------------------
G -----2-------4--------2------------------------
D ----3-------5--------2-------------------------
A ---3-------5--------0--------------------------
E --1-------3------------------------------------


F G Am
Somehow it seems colder now

Diğer Evanescence Akorları İçin Tıklayınız..


Müzik ya da Musiki, en genel tanımı ile sesin biçim ve anlamlı titreşimler kazanmış halidir. Başka bir deyiş ile de müzik, sesin ve sessizliğin belirli bir zaman aralığında ifade edildiği sanatsal bir formdur .

Bu Sitede Yerli ve Yabancı Tüm Şarkıların Sözlerini Bulabilirsiniz . Yabancı Şarkıların Çevirileri de Mevcuttur .

Eklenmesini istediğiniz şarkı sözleri için iletişime geçiniz .