Evanescence Akorları - My Last Breath(tab)

Evanescence - My Last Breath(tab)

Albüm : -

My Last Breath
tuning: drop D down 1&2 step


synth intro

intro&chorus
distortion
Db-----------5-5-0h1-1-0h3-3-3-3 --5&&&
Ab--1h3p1p0--5-5-0h1-1-0h3-3-3-3 last time go --5&&&mute
Db-----------5-5-0h1-1-0h3-3-3-3 --5&&&
Gb------------------------------
Bb------------------------------
Eb------------------------------


verse
clean
Db-----------------3-5------------------
Ab--5-6--3-5--1-3--------5-6--3-5--1-3--
Db-------------------------------------- chorus
Gb--------------------------------------
Bb--------------------------------------
Eb--------------------------------------

bridge
distortion PM-------------- | PM-------
Db(after chorus) 1-1-1-1-1-1-1-1--|3-0-0-1-0-0--0-0-0-0-
Ab---------------1-1-1-1-1-1-1-1--|3-0-0-1-0-0--0-0-0-0-
Db---------------1-1-1-1-1-1-1-1--|3-0-0-1-0-0--0-0-0-0-
Gb--------------------------------|---------------------
Bb--------------------------------|---------------------
Eb--------------------------------|---------------------

Diğer Evanescence Akorları İçin Tıklayınız..


Müzik ya da Musiki, en genel tanımı ile sesin biçim ve anlamlı titreşimler kazanmış halidir. Başka bir deyiş ile de müzik, sesin ve sessizliğin belirli bir zaman aralığında ifade edildiği sanatsal bir formdur .

Bu Sitede Yerli ve Yabancı Tüm Şarkıların Sözlerini Bulabilirsiniz . Yabancı Şarkıların Çevirileri de Mevcuttur .

Eklenmesini istediğiniz şarkı sözleri için iletişime geçiniz .