Evanescence Akorları - Tourniquet (Tab)

Evanescence - Tourniquet (Tab)

Albüm : -

e5 - 022xxx g&c5 - 332xxx a&d5 - 554xxx


Intro&Chorus

E5
e ---------------------|---------------------
B ---------------------|---------------------
G ------0--------------|------0-----------0--
D -----2-----2-4----0--|-----2-----2-4-------
A --22----22-----22----|--22----22-----22----
E --00----00-----00----|--00----00-----00----
** ** ** ** ** **

G&C5 A&D5
e ---------------------|--------------------------
B ---------------------|--------------------------
G ------0--------------|--------------------------
D -----2-----2-4----0--|-----7-5-4-4&7-5-4h5p4----
A --33----33-----33----|--55-------------------5--
E --33----33-----33----|--55----------------------
** ** ** **

harmonics
e --------7--12-------------
B -----7--------7-----7-----
G --5--------------5----7-- 2nd guitar plays these harmonics the second time round
D -----------------------7-
A --------------------------
E --------------------------


Verse - tricky muting



E5 G&C5 A&D5
e --------------------------|----------------------0--
B --------------------------|-------------------0-----
G --------------------------|---------------------0---
D --222--222--22--222--222--|--222--222--222--4-------
A --222--222--22--222--222--|--333--333--333--5-------
E --000--000--00--000--000--|--333--333--333--5-------
** ** ** ** ** ** ** **


Prechorus

E5 G&C5 A&D5
e -----------|--------------------0--
B -----------|----------------0------
G -----------|------------------0----
D ----2--X6--|----2--X4--224---------
A --222------|--333------335---------
E --000------|--333------335---------
** ** **


Bridge

E5
e ----------------------
B ------------------5b--
G ---------------------- (in brackets is only first time thru, just to lead into it)
D ----------------------
A -(2)22-22-2-22-222----
E -(0)00-00-0-00-000----
* ** ** * ** ***

Diğer Evanescence Akorları İçin Tıklayınız..


Müzik ya da Musiki, en genel tanımı ile sesin biçim ve anlamlı titreşimler kazanmış halidir. Başka bir deyiş ile de müzik, sesin ve sessizliğin belirli bir zaman aralığında ifade edildiği sanatsal bir formdur .

Bu Sitede Yerli ve Yabancı Tüm Şarkıların Sözlerini Bulabilirsiniz . Yabancı Şarkıların Çevirileri de Mevcuttur .

Eklenmesini istediğiniz şarkı sözleri için iletişime geçiniz .